ISO-10303-21;
HEADER;
FILE_DESCRIPTION (( 'STEP AP203' ),
    '1' );
FILE_NAME ('BK7-NPBSC-20-700-1000.STEP',
    '2020-12-22T02:10:49',
    ( '' ),
    ( '' ),
    'SwSTEP 2.0',
    'SolidWorks 2020',
    '' );
FILE_SCHEMA (( 'CONFIG_CONTROL_DESIGN' ));
ENDSEC;

DATA;
#1 = DIRECTION ( 'NONE',  ( -2.220446049250313081E-16, -1.000000000000000000, 0.000000000000000000 ) ) ;
#2 = EDGE_CURVE ( 'NONE', #24, #188, #222, .T. ) ;
#3 = CARTESIAN_POINT ( 'NONE',  ( -9.999999999999998224, 10.00000000000000355, 10.00000000000000000 ) ) ;
#4 = DIRECTION ( 'NONE',  ( 0.000000000000000000, 0.000000000000000000, 1.000000000000000000 ) ) ;
#5 = CARTESIAN_POINT ( 'NONE',  ( 10.00000000000000178, 9.999999999999998224, 10.00000000000000000 ) ) ;
#6 = FACE_OUTER_BOUND ( 'NONE', #101, .T. ) ;
#7 = PLANE ( 'NONE',  #173 ) ;
#8 = CC_DESIGN_DATE_AND_TIME_ASSIGNMENT ( #258, #143, ( #182 ) ) ;
#9 = DIRECTION ( 'NONE',  ( 1.000000000000000000, 0.000000000000000000, 0.000000000000000000 ) ) ;
#10 = DIRECTION ( 'NONE',  ( 0.000000000000000000, 1.000000000000000000, 0.000000000000000000 ) ) ;
#11 = APPLICATION_PROTOCOL_DEFINITION ( 'international standard', 'config_control_design', 1994, #29 ) ;
#12 = VECTOR ( 'NONE', #159, 1000.000000000000000 ) ;
#13 = DIRECTION ( 'NONE',  ( -0.000000000000000000, 0.000000000000000000, 1.000000000000000000 ) ) ;
#14 = VECTOR ( 'NONE', #230, 1000.000000000000000 ) ;
#15 = EDGE_CURVE ( 'NONE', #92, #261, #26, .T. ) ;
#16 = ORIENTED_EDGE ( 'NONE', *, *, #313, .F. ) ;
#17 = COORDINATED_UNIVERSAL_TIME_OFFSET ( 8, 0, .AHEAD. ) ;
#18 = AXIS2_PLACEMENT_3D ( 'NONE', #206, #62, #185 ) ;
#19 = EDGE_CURVE ( 'NONE', #291, #267, #196, .T. ) ;
#20 = AXIS2_PLACEMENT_3D ( 'NONE', #5, #278, #91 ) ;
#21 = ORIENTED_EDGE ( 'NONE', *, *, #105, .T. ) ;
#22 = ADVANCED_FACE ( 'NONE', ( #49 ), #51, .F. ) ;
#23 = PERSON_AND_ORGANIZATION ( #144, #252 ) ;
#24 = VERTEX_POINT ( 'NONE', #106 ) ;
#25 = COORDINATED_UNIVERSAL_TIME_OFFSET ( 8, 0, .AHEAD. ) ;
#26 = LINE ( 'NONE', #224, #47 ) ;
#27 = COORDINATED_UNIVERSAL_TIME_OFFSET ( 8, 0, .AHEAD. ) ;
#28 = ORIENTED_EDGE ( 'NONE', *, *, #178, .T. ) ;
#29 = APPLICATION_CONTEXT ( 'configuration controlled 3d designs of mechanical parts and assemblies' ) ;
#30 = DIRECTION ( 'NONE',  ( 0.000000000000000000, -0.000000000000000000, 1.000000000000000000 ) ) ;
#31 = APPLICATION_CONTEXT ( 'configuration controlled 3d designs of mechanical parts and assemblies' ) ;
#32 = CC_DESIGN_SECURITY_CLASSIFICATION ( #264, ( #88 ) ) ;
#33 = ADVANCED_FACE ( 'NONE', ( #277 ), #132, .F. ) ;
#34 = PLANE ( 'NONE',  #317 ) ;
#35 = FACE_OUTER_BOUND ( 'NONE', #217, .T. ) ;
#36 = LINE ( 'NONE', #60, #209 ) ;
#37 = DIRECTION ( 'NONE',  ( -0.000000000000000000, 0.000000000000000000, -1.000000000000000000 ) ) ;
#38 = CARTESIAN_POINT ( 'NONE',  ( -9.999999999999998224, -10.00000000000000000, 10.00000000000000000 ) ) ;
#39 = APPROVAL_DATE_TIME ( #240, #241 ) ;
#40 = FACE_OUTER_BOUND ( 'NONE', #199, .T. ) ;
#41 = CLOSED_SHELL ( 'NONE', ( #22, #108, #154, #137, #75 ) ) ;
#42 = PERSON_AND_ORGANIZATION_ROLE ( 'design_owner' ) ;
#43 = ORIENTED_EDGE ( 'NONE', *, *, #105, .F. ) ;
#44 = CC_DESIGN_PERSON_AND_ORGANIZATION_ASSIGNMENT ( #294, #72, ( #264 ) ) ;
#45 = ORIENTED_EDGE ( 'NONE', *, *, #248, .F. ) ;
#46 = CALENDAR_DATE ( 2020, 22, 12 ) ;
#47 = VECTOR ( 'NONE', #298, 1000.000000000000000 ) ;
#48 = ADVANCED_FACE ( 'NONE', ( #249 ), #34, .F. ) ;
#49 = FACE_OUTER_BOUND ( 'NONE', #288, .T. ) ;
#50 = ORIENTED_EDGE ( 'NONE', *, *, #15, .F. ) ;
#51 = PLANE ( 'NONE',  #94 ) ;
#52 = VECTOR ( 'NONE', #232, 1000.000000000000000 ) ;
#53 = CARTESIAN_POINT ( 'NONE',  ( 0.000000000000000000, 0.000000000000000000, -10.00000000000000000 ) ) ;
#54 = DIRECTION ( 'NONE',  ( 1.000000000000000000, -2.220446049250313081E-16, 0.000000000000000000 ) ) ;
#55 = DIRECTION ( 'NONE',  ( -0.000000000000000000, 0.000000000000000000, -1.000000000000000000 ) ) ;
#56 = CARTESIAN_POINT ( 'NONE',  ( 10.00000000000000178, 9.999999999999998224, -10.00000000000000000 ) ) ;
#57 = EDGE_CURVE ( 'NONE', #188, #96, #180, .T. ) ;
#58 = DIRECTION ( 'NONE',  ( -0.000000000000000000, -0.000000000000000000, -1.000000000000000000 ) ) ;
#59 = CALENDAR_DATE ( 2020, 22, 12 ) ;
#60 = CARTESIAN_POINT ( 'NONE',  ( 10.00000000000000000, 10.00000000000000000, 10.00000000000000000 ) ) ;
#61 = DIRECTION ( 'NONE',  ( 0.000000000000000000, 0.000000000000000000, 1.000000000000000000 ) ) ;
#62 = DIRECTION ( 'NONE',  ( -0.7071067811865474617, 0.7071067811865475727, 0.000000000000000000 ) ) ;
#63 = PERSON_AND_ORGANIZATION ( #144, #252 ) ;
#64 = LOCAL_TIME ( 10, 10, 49.00000000000000000, #17 ) ;
#65 = ORIENTED_EDGE ( 'NONE', *, *, #221, .F. ) ;
#66 = EDGE_CURVE ( 'NONE', #97, #190, #204, .T. ) ;
#67 = EDGE_LOOP ( 'NONE', ( #198, #293, #145 ) ) ;
#68 = ORIENTED_EDGE ( 'NONE', *, *, #178, .F. ) ;
#69 = PRODUCT ( 'BK7-NPBSC-20-700-1000', 'BK7-NPBSC-20-700-1000', '', ( #208 ) ) ;
#70 = DIRECTION ( 'NONE',  ( 1.000000000000000000, 0.000000000000000000, 0.000000000000000000 ) ) ;
#71 = PRODUCT_DEFINITION_SHAPE ( 'NONE', 'NONE',  #182 ) ;
#72 = PERSON_AND_ORGANIZATION_ROLE ( 'classification_officer' ) ;
#73 = VECTOR ( 'NONE', #265, 1000.000000000000000 ) ;
#74 = SHAPE_DEFINITION_REPRESENTATION ( #71, #164 ) ;
#75 = ADVANCED_FACE ( 'NONE', ( #305 ), #229, .F. ) ;
#76 = VERTEX_POINT ( 'NONE', #253 ) ;
#77 = DATE_AND_TIME ( #46, #125 ) ;
#78 = DIRECTION ( 'NONE',  ( -0.7071067811865475727, -0.7071067811865474617, 0.000000000000000000 ) ) ;
#79 = SECURITY_CLASSIFICATION_LEVEL ( 'unclassified' ) ;
#80 = EDGE_LOOP ( 'NONE', ( #268, #247, #128, #150 ) ) ;
#81 = VECTOR ( 'NONE', #233, 1000.000000000000000 ) ;
#82 = CARTESIAN_POINT ( 'NONE',  ( 0.000000000000000000, 0.000000000000000000, -10.00000000000000000 ) ) ;
#83 = DIRECTION ( 'NONE',  ( 1.000000000000000000, 0.000000000000000000, 0.000000000000000000 ) ) ;
#84 = DIRECTION ( 'NONE',  ( 1.000000000000000000, 0.000000000000000000, 0.000000000000000000 ) ) ;
#85 = LINE ( 'NONE', #254, #81 ) ;
#86 = ADVANCED_FACE ( 'NONE', ( #6 ), #179, .F. ) ;
#87 = CARTESIAN_POINT ( 'NONE',  ( -9.999999999999998224, 10.00000000000000355, -10.00000000000000000 ) ) ;
#88 = PRODUCT_DEFINITION_FORMATION_WITH_SPECIFIED_SOURCE ( 'ANY', '', #69, .NOT_KNOWN. ) ;
#89 = AXIS2_PLACEMENT_3D ( 'NONE', #82, #250, #84 ) ;
#90 = PLANE ( 'NONE',  #18 ) ;
#91 = DIRECTION ( 'NONE',  ( 0.000000000000000000, 0.000000000000000000, 1.000000000000000000 ) ) ;
#92 = VERTEX_POINT ( 'NONE', #257 ) ;
#93 = ORIENTED_EDGE ( 'NONE', *, *, #57, .T. ) ;
#94 = AXIS2_PLACEMENT_3D ( 'NONE', #225, #302, #273 ) ;
#95 = EDGE_CURVE ( 'NONE', #261, #201, #207, .T. ) ;
#96 = VERTEX_POINT ( 'NONE', #183 ) ;
#97 = VERTEX_POINT ( 'NONE', #205 ) ;
#98 = ORIENTED_EDGE ( 'NONE', *, *, #282, .F. ) ;
#99 = CARTESIAN_POINT ( 'NONE',  ( 10.00000000000000178, 9.999999999999998224, -10.00000000000000000 ) ) ;
#100 = COORDINATED_UNIVERSAL_TIME_OFFSET ( 8, 0, .AHEAD. ) ;
#101 = EDGE_LOOP ( 'NONE', ( #174, #16, #314, #114 ) ) ;
#102 = CARTESIAN_POINT ( 'NONE',  ( -9.999999999999998224, -10.00000000000000000, 10.00000000000000000 ) ) ;
#103 = DIRECTION ( 'NONE',  ( -0.7071067811865475727, -0.7071067811865474617, 0.000000000000000000 ) ) ;
#104 = CARTESIAN_POINT ( 'NONE',  ( 10.00000000000000000, 10.00000000000000000, -10.00000000000000000 ) ) ;
#105 = EDGE_CURVE ( 'NONE', #267, #96, #308, .T. ) ;
#106 = CARTESIAN_POINT ( 'NONE',  ( 10.00000000000000178, -10.00000000000000000, -10.00000000000000000 ) ) ;
#107 = CARTESIAN_POINT ( 'NONE',  ( 10.00000000000000178, -10.00000000000000000, 10.00000000000000000 ) ) ;
#108 = ADVANCED_FACE ( 'NONE', ( #203 ), #7, .F. ) ;
#109 = DIRECTION ( 'NONE',  ( 2.220446049250313081E-16, 1.000000000000000000, 0.000000000000000000 ) ) ;
#110 = CARTESIAN_POINT ( 'NONE',  ( 10.00000000000000178, 9.999999999999998224, 10.00000000000000000 ) ) ;
#111 = AXIS2_PLACEMENT_3D ( 'NONE', #280, #157, #181 ) ;
#112 = LINE ( 'NONE', #311, #279 ) ;
#113 = CARTESIAN_POINT ( 'NONE',  ( -9.999999999999998224, -10.00000000000000000, 10.00000000000000000 ) ) ;
#114 = ORIENTED_EDGE ( 'NONE', *, *, #95, .T. ) ;
#115 = APPROVAL_PERSON_ORGANIZATION ( #315, #241, #141 ) ;
#116 = CC_DESIGN_APPROVAL ( #274, ( #88 ) ) ;
#117 = EDGE_LOOP ( 'NONE', ( #270, #271, #98 ) ) ;
#118 = LINE ( 'NONE', #266, #272 ) ;
#119 = VECTOR ( 'NONE', #70, 1000.000000000000000 ) ;
#120 = ORIENTED_EDGE ( 'NONE', *, *, #95, .F. ) ;
#121 = DATE_AND_TIME ( #197, #166 ) ;
#122 = ORIENTED_EDGE ( 'NONE', *, *, #66, .T. ) ;
#123 = ORIENTED_EDGE ( 'NONE', *, *, #237, .F. ) ;
#124 = CC_DESIGN_PERSON_AND_ORGANIZATION_ASSIGNMENT ( #168, #256, ( #182 ) ) ;
#125 = LOCAL_TIME ( 10, 10, 49.00000000000000000, #27 ) ;
#126 = APPROVAL_DATE_TIME ( #121, #135 ) ;
#127 = VECTOR ( 'NONE', #58, 1000.000000000000000 ) ;
#128 = ORIENTED_EDGE ( 'NONE', *, *, #295, .F. ) ;
#129 = DIRECTION ( 'NONE',  ( 2.220446049250313081E-16, 1.000000000000000000, 0.000000000000000000 ) ) ;
#130 = VECTOR ( 'NONE', #103, 1000.000000000000000 ) ;
#131 = CLOSED_SHELL ( 'NONE', ( #235, #86, #48, #151, #33 ) ) ;
#132 = PLANE ( 'NONE',  #289 ) ;
#133 = CARTESIAN_POINT ( 'NONE',  ( -10.00000000000000178, -9.999999999999996447, -10.00000000000000000 ) ) ;
#134 = CARTESIAN_POINT ( 'NONE',  ( 10.00000000000000178, 9.999999999999998224, 10.00000000000000000 ) ) ;
#135 = APPROVAL ( #245, 'UNSPECIFIED' ) ;
#136 = CARTESIAN_POINT ( 'NONE',  ( 0.000000000000000000, 0.000000000000000000, 0.000000000000000000 ) ) ;
#137 = ADVANCED_FACE ( 'NONE', ( #284 ), #309, .T. ) ;
#138 = LINE ( 'NONE', #210, #165 ) ;
#139 = CARTESIAN_POINT ( 'NONE',  ( -9.999999999999998224, -10.00000000000000000, 10.00000000000000000 ) ) ;
#140 = CARTESIAN_POINT ( 'NONE',  ( -9.999999999999998224, 10.00000000000000355, 10.00000000000000000 ) ) ;
#141 = APPROVAL_ROLE ( '' ) ;
#142 = VECTOR ( 'NONE', #78, 1000.000000000000000 ) ;
#143 = DATE_TIME_ROLE ( 'creation_date' ) ;
#144 = PERSON ( 'UNSPECIFIED', 'UNSPECIFIED', 'UNSPECIFIED', ('UNSPECIFIED'), ('UNSPECIFIED'), ('UNSPECIFIED') ) ;
#145 = ORIENTED_EDGE ( 'NONE', *, *, #237, .T. ) ;
#146 = EDGE_CURVE ( 'NONE', #219, #24, #85, .T. ) ;
#147 = CALENDAR_DATE ( 2020, 22, 12 ) ;
#148 = ORIENTED_EDGE ( 'NONE', *, *, #19, .T. ) ;
#149 = LOCAL_TIME ( 10, 10, 49.00000000000000000, #25 ) ;
#150 = ORIENTED_EDGE ( 'NONE', *, *, #146, .T. ) ;
#151 = ADVANCED_FACE ( 'NONE', ( #35 ), #276, .T. ) ;
#152 = DIRECTION ( 'NONE',  ( 0.000000000000000000, 0.000000000000000000, 1.000000000000000000 ) ) ;
#153 = DIRECTION ( 'NONE',  ( 0.000000000000000000, -0.000000000000000000, 1.000000000000000000 ) ) ;
#154 = ADVANCED_FACE ( 'NONE', ( #228 ), #255, .F. ) ;
#155 = LINE ( 'NONE', #133, #262 ) ;
#156 = CC_DESIGN_DATE_AND_TIME_ASSIGNMENT ( #77, #200, ( #264 ) ) ;
#157 = DIRECTION ( 'NONE',  ( 0.000000000000000000, -0.000000000000000000, 1.000000000000000000 ) ) ;
#158 = APPROVAL_STATUS ( 'not_yet_approved' ) ;
#159 = DIRECTION ( 'NONE',  ( 1.000000000000000000, -2.220446049250313081E-16, 0.000000000000000000 ) ) ;
#160 = CALENDAR_DATE ( 2020, 22, 12 ) ;
#161 = CARTESIAN_POINT ( 'NONE',  ( 10.00000000000000000, 10.00000000000000000, -10.00000000000000000 ) ) ;
#162 = CC_DESIGN_APPROVAL ( #241, ( #182 ) ) ;
#163 = ORIENTED_EDGE ( 'NONE', *, *, #301, .T. ) ;
#164 = ADVANCED_BREP_SHAPE_REPRESENTATION ( 'BK7-NPBSC-20-700-1000', ( #287, #286, #303 ), #177 ) ;
#165 = VECTOR ( 'NONE', #312, 1000.000000000000000 ) ;
#166 = LOCAL_TIME ( 10, 10, 49.00000000000000000, #100 ) ;
#167 = PRODUCT_RELATED_PRODUCT_CATEGORY ( 'detail', '', ( #69 ) ) ;
#168 = PERSON_AND_ORGANIZATION ( #144, #252 ) ;
#169 = VECTOR ( 'NONE', #55, 1000.000000000000000 ) ;
#170 = CARTESIAN_POINT ( 'NONE',  ( -9.999999999999998224, -10.00000000000000000, -10.00000000000000000 ) ) ;
#171 = ORIENTED_EDGE ( 'NONE', *, *, #282, .T. ) ;
#172 = CARTESIAN_POINT ( 'NONE',  ( 10.00000000000000178, 9.999999999999998224, 10.00000000000000000 ) ) ;
#173 = AXIS2_PLACEMENT_3D ( 'NONE', #38, #10, #153 ) ;
#174 = ORIENTED_EDGE ( 'NONE', *, *, #195, .F. ) ;
#175 = PERSON_AND_ORGANIZATION ( #144, #252 ) ;
#176 = DESIGN_CONTEXT ( 'detailed design', #31, 'design' ) ;
#177 =( GEOMETRIC_REPRESENTATION_CONTEXT ( 3 ) GLOBAL_UNCERTAINTY_ASSIGNED_CONTEXT ( ( #300 ) ) GLOBAL_UNIT_ASSIGNED_CONTEXT ( ( #215, #318, #193 ) ) REPRESENTATION_CONTEXT ( 'NONE', 'WORKASPACE' ) );
#178 = EDGE_CURVE ( 'NONE', #261, #97, #36, .T. ) ;
#179 = PLANE ( 'NONE',  #316 ) ;
#180 = LINE ( 'NONE', #202, #130 ) ;
#181 = DIRECTION ( 'NONE',  ( 2.220446049250313081E-16, 1.000000000000000000, 0.000000000000000000 ) ) ;
#182 = PRODUCT_DEFINITION ( 'UNKNOWN', '', #88, #176 ) ;
#183 = CARTESIAN_POINT ( 'NONE',  ( -9.999999999999998224, -10.00000000000000000, -10.00000000000000000 ) ) ;
#184 = APPROVAL_STATUS ( 'not_yet_approved' ) ;
#185 = DIRECTION ( 'NONE',  ( 0.7071067811865475727, 0.7071067811865474617, 0.000000000000000000 ) ) ;
#186 = LINE ( 'NONE', #170, #73 ) ;
#187 = LINE ( 'NONE', #134, #223 ) ;
#188 = VERTEX_POINT ( 'NONE', #56 ) ;
#189 = EDGE_CURVE ( 'NONE', #291, #188, #187, .T. ) ;
#190 = VERTEX_POINT ( 'NONE', #104 ) ;
#191 = ORIENTED_EDGE ( 'NONE', *, *, #313, .T. ) ;
#192 = ORIENTED_EDGE ( 'NONE', *, *, #146, .F. ) ;
#193 =( NAMED_UNIT ( * ) SI_UNIT ( $, .STERADIAN. ) SOLID_ANGLE_UNIT ( ) );
#194 = PERSON_AND_ORGANIZATION_ROLE ( 'creator' ) ;
#195 = EDGE_CURVE ( 'NONE', #76, #201, #155, .T. ) ;
#196 = LINE ( 'NONE', #172, #142 ) ;
#197 = CALENDAR_DATE ( 2020, 22, 12 ) ;
#198 = ORIENTED_EDGE ( 'NONE', *, *, #248, .T. ) ;
#199 = EDGE_LOOP ( 'NONE', ( #45, #239, #246, #191 ) ) ;
#200 = DATE_TIME_ROLE ( 'classification_date' ) ;
#201 = VERTEX_POINT ( 'NONE', #87 ) ;
#202 = CARTESIAN_POINT ( 'NONE',  ( 10.00000000000000178, 9.999999999999998224, -10.00000000000000000 ) ) ;
#203 = FACE_OUTER_BOUND ( 'NONE', #236, .T. ) ;
#204 = LINE ( 'NONE', #307, #169 ) ;
#205 = CARTESIAN_POINT ( 'NONE',  ( 10.00000000000000000, 10.00000000000000000, 10.00000000000000000 ) ) ;
#206 = CARTESIAN_POINT ( 'NONE',  ( 10.00000000000000000, 10.00000000000000000, 10.00000000000000000 ) ) ;
#207 = LINE ( 'NONE', #3, #14 ) ;
#208 = MECHANICAL_CONTEXT ( 'NONE', #29, 'mechanical' ) ;
#209 = VECTOR ( 'NONE', #251, 1000.000000000000000 ) ;
#210 = CARTESIAN_POINT ( 'NONE',  ( 10.00000000000000000, 10.00000000000000000, -10.00000000000000000 ) ) ;
#211 = CC_DESIGN_APPROVAL ( #135, ( #264 ) ) ;
#212 = VECTOR ( 'NONE', #321, 1000.000000000000000 ) ;
#213 = ORIENTED_EDGE ( 'NONE', *, *, #295, .T. ) ;
#214 = CC_DESIGN_PERSON_AND_ORGANIZATION_ASSIGNMENT ( #63, #42, ( #69 ) ) ;
#215 =( LENGTH_UNIT ( ) NAMED_UNIT ( * ) SI_UNIT ( .MILLI., .METRE. ) );
#216 = CC_DESIGN_PERSON_AND_ORGANIZATION_ASSIGNMENT ( #175, #194, ( #88 ) ) ;
#217 = EDGE_LOOP ( 'NONE', ( #65, #68, #50 ) ) ;
#218 = AXIS2_PLACEMENT_3D ( 'NONE', #306, #13, #83 ) ;
#219 = VERTEX_POINT ( 'NONE', #107 ) ;
#220 = DATE_AND_TIME ( #147, #149 ) ;
#221 = EDGE_CURVE ( 'NONE', #97, #92, #112, .T. ) ;
#222 = LINE ( 'NONE', #99, #212 ) ;
#223 = VECTOR ( 'NONE', #231, 1000.000000000000000 ) ;
#224 = CARTESIAN_POINT ( 'NONE',  ( -10.00000000000000178, -9.999999999999996447, 10.00000000000000000 ) ) ;
#225 = CARTESIAN_POINT ( 'NONE',  ( 10.00000000000000178, 9.999999999999998224, 10.00000000000000000 ) ) ;
#226 = CARTESIAN_POINT ( 'NONE',  ( 10.00000000000000000, 10.00000000000000000, 10.00000000000000000 ) ) ;
#227 = APPROVAL_PERSON_ORGANIZATION ( #242, #135, #320 ) ;
#228 = FACE_OUTER_BOUND ( 'NONE', #80, .T. ) ;
#229 = PLANE ( 'NONE',  #89 ) ;
#230 = DIRECTION ( 'NONE',  ( -0.000000000000000000, 0.000000000000000000, -1.000000000000000000 ) ) ;
#231 = DIRECTION ( 'NONE',  ( -0.000000000000000000, -0.000000000000000000, -1.000000000000000000 ) ) ;
#232 = DIRECTION ( 'NONE',  ( -0.000000000000000000, 1.000000000000000000, -0.000000000000000000 ) ) ;
#233 = DIRECTION ( 'NONE',  ( -0.000000000000000000, -0.000000000000000000, -1.000000000000000000 ) ) ;
#234 = APPROVAL_ROLE ( '' ) ;
#235 = ADVANCED_FACE ( 'NONE', ( #40 ), #90, .F. ) ;
#236 = EDGE_LOOP ( 'NONE', ( #171, #192, #319, #21 ) ) ;
#237 = EDGE_CURVE ( 'NONE', #201, #190, #283, .T. ) ;
#238 = EDGE_LOOP ( 'NONE', ( #148, #163, #213 ) ) ;
#239 = ORIENTED_EDGE ( 'NONE', *, *, #66, .F. ) ;
#240 = DATE_AND_TIME ( #160, #64 ) ;
#241 = APPROVAL ( #184, 'UNSPECIFIED' ) ;
#242 = PERSON_AND_ORGANIZATION ( #144, #252 ) ;
#243 = LOCAL_TIME ( 10, 10, 49.00000000000000000, #281 ) ;
#244 = EDGE_LOOP ( 'NONE', ( #123, #120, #28, #122 ) ) ;
#245 = APPROVAL_STATUS ( 'not_yet_approved' ) ;
#246 = ORIENTED_EDGE ( 'NONE', *, *, #221, .T. ) ;
#247 = ORIENTED_EDGE ( 'NONE', *, *, #189, .F. ) ;
#248 = EDGE_CURVE ( 'NONE', #190, #76, #138, .T. ) ;
#249 = FACE_OUTER_BOUND ( 'NONE', #244, .T. ) ;
#250 = DIRECTION ( 'NONE',  ( -0.000000000000000000, 0.000000000000000000, 1.000000000000000000 ) ) ;
#251 = DIRECTION ( 'NONE',  ( 1.000000000000000000, -2.220446049250313081E-16, 0.000000000000000000 ) ) ;
#252 = ORGANIZATION ( 'UNSPECIFIED', 'UNSPECIFIED', '' ) ;
#253 = CARTESIAN_POINT ( 'NONE',  ( -10.00000000000000178, -9.999999999999996447, -10.00000000000000000 ) ) ;
#254 = CARTESIAN_POINT ( 'NONE',  ( 10.00000000000000178, -10.00000000000000000, 10.00000000000000000 ) ) ;
#255 = PLANE ( 'NONE',  #20 ) ;
#256 = PERSON_AND_ORGANIZATION_ROLE ( 'creator' ) ;
#257 = CARTESIAN_POINT ( 'NONE',  ( -10.00000000000000178, -9.999999999999996447, 10.00000000000000000 ) ) ;
#258 = DATE_AND_TIME ( #59, #243 ) ;
#259 = DIRECTION ( 'NONE',  ( -0.7071067811865475727, -0.7071067811865474617, 0.000000000000000000 ) ) ;
#260 = LINE ( 'NONE', #285, #52 ) ;
#261 = VERTEX_POINT ( 'NONE', #140 ) ;
#262 = VECTOR ( 'NONE', #109, 1000.000000000000000 ) ;
#263 = ORIENTED_EDGE ( 'NONE', *, *, #19, .F. ) ;
#264 = SECURITY_CLASSIFICATION ( '', '', #79 ) ;
#265 = DIRECTION ( 'NONE',  ( 1.000000000000000000, 0.000000000000000000, 0.000000000000000000 ) ) ;
#266 = CARTESIAN_POINT ( 'NONE',  ( -10.00000000000000178, -9.999999999999996447, 10.00000000000000000 ) ) ;
#267 = VERTEX_POINT ( 'NONE', #113 ) ;
#268 = ORIENTED_EDGE ( 'NONE', *, *, #2, .T. ) ;
#269 = CC_DESIGN_PERSON_AND_ORGANIZATION_ASSIGNMENT ( #297, #299, ( #88 ) ) ;
#270 = ORIENTED_EDGE ( 'NONE', *, *, #57, .F. ) ;
#271 = ORIENTED_EDGE ( 'NONE', *, *, #2, .F. ) ;
#272 = VECTOR ( 'NONE', #37, 1000.000000000000000 ) ;
#273 = DIRECTION ( 'NONE',  ( 0.7071067811865475727, 0.7071067811865474617, 0.000000000000000000 ) ) ;
#274 = APPROVAL ( #158, 'UNSPECIFIED' ) ;
#275 = CARTESIAN_POINT ( 'NONE',  ( -10.00000000000000178, -9.999999999999996447, 10.00000000000000000 ) ) ;
#276 = PLANE ( 'NONE',  #111 ) ;
#277 = FACE_OUTER_BOUND ( 'NONE', #67, .T. ) ;
#278 = DIRECTION ( 'NONE',  ( -1.000000000000000000, 0.000000000000000000, 0.000000000000000000 ) ) ;
#279 = VECTOR ( 'NONE', #259, 1000.000000000000000 ) ;
#280 = CARTESIAN_POINT ( 'NONE',  ( 0.000000000000000000, 0.000000000000000000, 10.00000000000000000 ) ) ;
#281 = COORDINATED_UNIVERSAL_TIME_OFFSET ( 8, 0, .AHEAD. ) ;
#282 = EDGE_CURVE ( 'NONE', #96, #24, #186, .T. ) ;
#283 = LINE ( 'NONE', #161, #12 ) ;
#284 = FACE_OUTER_BOUND ( 'NONE', #238, .T. ) ;
#285 = CARTESIAN_POINT ( 'NONE',  ( 10.00000000000000178, 9.999999999999998224, 10.00000000000000000 ) ) ;
#286 = MANIFOLD_SOLID_BREP ( '¾µÏ', #131 ) ;
#287 = MANIFOLD_SOLID_BREP ( 'Í¹Ì¨-À', #41 ) ;
#288 = EDGE_LOOP ( 'NONE', ( #93, #43, #263, #296 ) ) ;
#289 = AXIS2_PLACEMENT_3D ( 'NONE', #53, #30, #129 ) ;
#290 = LINE ( 'NONE', #139, #119 ) ;
#291 = VERTEX_POINT ( 'NONE', #110 ) ;
#292 = APPROVAL_DATE_TIME ( #220, #274 ) ;
#293 = ORIENTED_EDGE ( 'NONE', *, *, #195, .T. ) ;
#294 = PERSON_AND_ORGANIZATION ( #144, #252 ) ;
#295 = EDGE_CURVE ( 'NONE', #219, #291, #260, .T. ) ;
#296 = ORIENTED_EDGE ( 'NONE', *, *, #189, .T. ) ;
#297 = PERSON_AND_ORGANIZATION ( #144, #252 ) ;
#298 = DIRECTION ( 'NONE',  ( 2.220446049250313081E-16, 1.000000000000000000, 0.000000000000000000 ) ) ;
#299 = PERSON_AND_ORGANIZATION_ROLE ( 'design_supplier' ) ;
#300 = UNCERTAINTY_MEASURE_WITH_UNIT (LENGTH_MEASURE( 1.000000000000000082E-05 ), #215, 'distance_accuracy_value', 'NONE');
#301 = EDGE_CURVE ( 'NONE', #267, #219, #290, .T. ) ;
#302 = DIRECTION ( 'NONE',  ( 0.7071067811865474617, -0.7071067811865475727, 0.000000000000000000 ) ) ;
#303 = AXIS2_PLACEMENT_3D ( 'NONE', #136, #61, #9 ) ;
#304 = APPROVAL_PERSON_ORGANIZATION ( #23, #274, #234 ) ;
#305 = FACE_OUTER_BOUND ( 'NONE', #117, .T. ) ;
#306 = CARTESIAN_POINT ( 'NONE',  ( 0.000000000000000000, 0.000000000000000000, 10.00000000000000000 ) ) ;
#307 = CARTESIAN_POINT ( 'NONE',  ( 10.00000000000000000, 10.00000000000000000, 10.00000000000000000 ) ) ;
#308 = LINE ( 'NONE', #102, #127 ) ;
#309 = PLANE ( 'NONE',  #218 ) ;
#310 = APPLICATION_PROTOCOL_DEFINITION ( 'international standard', 'config_control_design', 1994, #31 ) ;
#311 = CARTESIAN_POINT ( 'NONE',  ( 10.00000000000000000, 10.00000000000000000, 10.00000000000000000 ) ) ;
#312 = DIRECTION ( 'NONE',  ( -0.7071067811865475727, -0.7071067811865474617, 0.000000000000000000 ) ) ;
#313 = EDGE_CURVE ( 'NONE', #92, #76, #118, .T. ) ;
#314 = ORIENTED_EDGE ( 'NONE', *, *, #15, .T. ) ;
#315 = PERSON_AND_ORGANIZATION ( #144, #252 ) ;
#316 = AXIS2_PLACEMENT_3D ( 'NONE', #275, #54, #152 ) ;
#317 = AXIS2_PLACEMENT_3D ( 'NONE', #226, #1, #4 ) ;
#318 =( NAMED_UNIT ( * ) PLANE_ANGLE_UNIT ( ) SI_UNIT ( $, .RADIAN. ) );
#319 = ORIENTED_EDGE ( 'NONE', *, *, #301, .F. ) ;
#320 = APPROVAL_ROLE ( '' ) ;
#321 = DIRECTION ( 'NONE',  ( -0.000000000000000000, 1.000000000000000000, -0.000000000000000000 ) ) ;
ENDSEC;
END-ISO-10303-21;
